Title :  bakit ba by siakol
Tabbed by: Rodjiec Son M.
Mga pre alam ko alam nyo na chords nito and pkinggan nyo na lang kung san
ipapasok ung mga riffs. Ok!


Riff 1
e-----7s9----6-7-6-----------
B------------------7---------
G----------------------------
D----------------------------
A----------------------------
E----------------------------

Riff 2
e10p9-10p9-10p9-------------
B---------------10-----------
G----------------------------
D----------------------------
A----------------------------
E----------------------------

Riff 3
e--8--9--10--9--8----------------------
B------------------9-------------------
G--------------------------------------
D--8--9--10--9--8----------------------
A--------------------------------------
E--------------------------------------

Riff 5
e---------11------------------
B----8s10---------------------
G-----------------------------
D-----------------------------
A-----------------------------
E-----------------------------



Riff 6
e----9s11---9-10-9-10-----------------
B---------------------10--------------
G-------------------------------------
D-------------------------------------
A-------------------------------------
E-------------------------------------

solo
(check kung correct nag-aalangan ako dito eh.)

e--------------------5-6h7-7-|--7-6-5-6-7------------------|
B--------------5-6-7---------|------------7-6-5-6-77s8-8--|
G--------5-6-7---------------|-----------------------------|
D--5-6-7---------------------|-----------------------------|
A----------------------------|-----------------------------|
E----------------------------|-----------------------------|



e--8-7-6-7-8-------------------|-----------------------------|
B------------8-7-6-7-8--8S9-9--|--------------7-8-9----------|
G------------------------------|--------7-8-9-------7-8h9-9--|
D------------------------------|--7-8-9----------------------|
A------------------------------|-----------------------------|
E------------------------------|-----------------------------|

e--8-6-5-6--8-6-5-6-------| |-----------10-9----------------------|
B---------6--------6-6s8--| |--8-9-10--------10-9-10-11-12s14-14--|
G-------------------------| 3x |-------------------------------------|
D-------------------------| |-------------------------------------|
A-------------------------| |-------------------------------------|
E-------------------------| |-------------------------------------|

e--7-8-7------------------------|-
B--------88s10-10-11-10-11--12-|-
G-------------------------------|-
D-------------------------------|-
A-------------------------------|-
E-------------------------------|-

4 suggestions,comments or request mail this add: stampede#7@hotmail.com or
stampede7@hotmail.com or txt dis # 9207567505.God bless

|| print chords || correct text || send link


This guitar chords was posted by igormagadan



View all chords by Siakol